Hasta que vaya a ti (Guitarra)

Alfareros


E|------------------------------------------------------------------|
B|-----1-1-1-----------1-1-1-----------1-1-1-----------1-1-1--------|
G|--0---------2-----0---------0-----0---------2-----0----------0----|
D|------------------------------------------------------------------|
A|------------------------------------------------------------------|
E|------------------------------------------------------------------|

        F                C              F               C
Nada mas grande que estar en Tu Presencia
         F                         C 
Poder contemplarte tan cerca de mi.
            Am        F        C 
Como prometiste que estarías conmigo
          F                     C 
todos los días aquí estas Señor

          Am     F         C 
Que hermoso es mirarte, y hablarte
                 F          C 
y escucharte en mi corazón.
       F             C 
Y voy a alabarte, y adorarte,
           F          C 
contemplarte hasta que vaya a Ti.
      F                    C

E|------------------------------------------------------------------|
B|-----1-1-1-----------1-1-1-----------1-1-1-----------1-1-1--------|
G|--0---------2-----0---------0-----0---------2-----0----------0----|
D|------------------------------------------------------------------|
A|------------------------------------------------------------------|
E|------------------------------------------------------------------|

        F                C              F                C 
Estando contigo, sentado a tu mesa
           F                  C 
nada mas importa en Gloria te muestras
           Am        F         C 
Tengo la certeza que el cielo se abre
       F                       C 
por Tí cuando entras en mi a quedarte.
               Am        F      C
¡Haz clic para puntuar esta entrada!
(Votos: 0 Promedio: 0)

Te gustó los acordes de Hasta que vaya a ti. Mira más acordes de Alfareros

Nota: Todo material descrito a continuación tab, acordes, letra y demás. Es propiedad intelectual del autor de cada canción. El contenido de este artículo es exclusivo para uso didáctico de toda nuestra querida comunidad.


Nosotros usamos cookies para mejorar la experiencia del usuario. Más información